ISO-10303-21;
HEADER;
FILE_DESCRIPTION (( 'STEP AP203' ),
    '1' );
FILE_NAME ('QM-AAHWP-10-650-1100-M.STEP',
    '2021-01-05T02:32:31',
    ( '' ),
    ( '' ),
    'SwSTEP 2.0',
    'SolidWorks 2020',
    '' );
FILE_SCHEMA (( 'CONFIG_CONTROL_DESIGN' ));
ENDSEC;

DATA;
#1 = ORGANIZATION ( 'UNSPECIFIED', 'UNSPECIFIED', '' ) ;
#2 = DIRECTION ( 'NONE',  ( 0.000000000000000000, 0.000000000000000000, 1.000000000000000000 ) ) ;
#3 = EDGE_CURVE ( 'NONE', #223, #19, #272, .T. ) ;
#4 = DIRECTION ( 'NONE',  ( 0.000000000000000000, 0.000000000000000000, 1.000000000000000000 ) ) ;
#5 = CARTESIAN_POINT ( 'NONE',  ( 0.5000000000000004441, 0.000000000000000000, 0.000000000000000000 ) ) ;
#6 = DIRECTION ( 'NONE',  ( 0.000000000000000000, 0.000000000000000000, 1.000000000000000000 ) ) ;
#7 = APPROVAL_DATE_TIME ( #242, #55 ) ;
#8 = COORDINATED_UNIVERSAL_TIME_OFFSET ( 8, 0, .AHEAD. ) ;
#9 = ADVANCED_FACE ( 'NONE', ( #324 ), #87, .T. ) ;
#10 = ORIENTED_EDGE ( 'NONE', *, *, #48, .T. ) ;
#11 = MECHANICAL_CONTEXT ( 'NONE', #285, 'mechanical' ) ;
#12 = VERTEX_POINT ( 'NONE', #254 ) ;
#13 = LOCAL_TIME ( 10, 32, 31.00000000000000000, #317 ) ;
#14 = PRODUCT_DEFINITION_FORMATION_WITH_SPECIFIED_SOURCE ( 'ANY', '', #314, .NOT_KNOWN. ) ;
#15 = PERSON_AND_ORGANIZATION ( #258, #1 ) ;
#16 = DIRECTION ( 'NONE',  ( 0.000000000000000000, 0.000000000000000000, 1.000000000000000000 ) ) ;
#17 = DATE_AND_TIME ( #244, #144 ) ;
#18 = EDGE_LOOP ( 'NONE', ( #39, #245, #330, #114 ) ) ;
#19 = VERTEX_POINT ( 'NONE', #281 ) ;
#20 = AXIS2_PLACEMENT_3D ( 'NONE', #25, #67, #227 ) ;
#21 = DIRECTION ( 'NONE',  ( 0.000000000000000000, 0.000000000000000000, 1.000000000000000000 ) ) ;
#22 = DIRECTION ( 'NONE',  ( -1.000000000000000000, -0.000000000000000000, -0.000000000000000000 ) ) ;
#23 = CARTESIAN_POINT ( 'NONE',  ( -1.614212418857619014, 6.123233995736767268E-16, -5.000000000000000888 ) ) ;
#24 = DIRECTION ( 'NONE',  ( 0.000000000000000000, 0.000000000000000000, 1.000000000000000000 ) ) ;
#25 = CARTESIAN_POINT ( 'NONE',  ( -0.5000000000000002220, 0.000000000000000000, 0.000000000000000000 ) ) ;
#26 = EDGE_CURVE ( 'NONE', #89, #274, #130, .T. ) ;
#27 = CARTESIAN_POINT ( 'NONE',  ( -3.000000000000000000, 0.000000000000000000, 0.000000000000000000 ) ) ;
#28 = VECTOR ( 'NONE', #203, 1000.000000000000000 ) ;
#29 = AXIS2_PLACEMENT_3D ( 'NONE', #289, #213, #6 ) ;
#30 = DIRECTION ( 'NONE',  ( -1.000000000000000000, -0.000000000000000000, -0.000000000000000000 ) ) ;
#31 = CARTESIAN_POINT ( 'NONE',  ( 3.000000000000000000, 0.000000000000000000, 5.000000000000001776 ) ) ;
#32 = DIRECTION ( 'NONE',  ( 0.000000000000000000, 0.000000000000000000, 1.000000000000000000 ) ) ;
#33 = DIRECTION ( 'NONE',  ( -1.000000000000000000, -0.000000000000000000, -0.000000000000000000 ) ) ;
#34 = AXIS2_PLACEMENT_3D ( 'NONE', #74, #305, #51 ) ;
#35 = PERSON_AND_ORGANIZATION ( #258, #1 ) ;
#36 = ORIENTED_EDGE ( 'NONE', *, *, #329, .F. ) ;
#37 = VERTEX_POINT ( 'NONE', #202 ) ;
#38 = CALENDAR_DATE ( 2021, 5, 1 ) ;
#39 = ORIENTED_EDGE ( 'NONE', *, *, #26, .F. ) ;
#40 = CIRCLE ( 'NONE', #34, 5.000000000000001776 ) ;
#41 = VERTEX_POINT ( 'NONE', #252 ) ;
#42 = ORIENTED_EDGE ( 'NONE', *, *, #48, .F. ) ;
#43 = EDGE_CURVE ( 'NONE', #266, #37, #115, .T. ) ;
#44 = DIRECTION ( 'NONE',  ( -0.000000000000000000, 0.000000000000000000, 1.000000000000000000 ) ) ;
#45 = LOCAL_TIME ( 10, 32, 31.00000000000000000, #8 ) ;
#46 = CARTESIAN_POINT ( 'NONE',  ( 3.000000000000000000, 0.000000000000000000, 0.000000000000000000 ) ) ;
#47 = ORIENTED_EDGE ( 'NONE', *, *, #205, .F. ) ;
#48 = EDGE_CURVE ( 'NONE', #19, #223, #58, .T. ) ;
#49 = CARTESIAN_POINT ( 'NONE',  ( -1.614212418857619014, 0.000000000000000000, 0.000000000000000000 ) ) ;
#50 = FACE_BOUND ( 'NONE', #303, .T. ) ;
#51 = DIRECTION ( 'NONE',  ( 0.000000000000000000, 0.000000000000000000, 1.000000000000000000 ) ) ;
#52 = DIRECTION ( 'NONE',  ( -1.000000000000000000, -0.000000000000000000, -0.000000000000000000 ) ) ;
#53 = LOCAL_TIME ( 10, 32, 31.00000000000000000, #165 ) ;
#54 = FACE_OUTER_BOUND ( 'NONE', #221, .T. ) ;
#55 = APPROVAL ( #171, 'UNSPECIFIED' ) ;
#56 = PLANE ( 'NONE',  #320 ) ;
#57 = APPROVAL_DATE_TIME ( #17, #301 ) ;
#58 = CIRCLE ( 'NONE', #248, 12.69999999999999929 ) ;
#59 = EDGE_LOOP ( 'NONE', ( #36, #319 ) ) ;
#60 = APPROVAL_ROLE ( '' ) ;
#61 = EDGE_LOOP ( 'NONE', ( #166, #240 ) ) ;
#62 = DATE_AND_TIME ( #219, #53 ) ;
#63 = EDGE_LOOP ( 'NONE', ( #133, #238 ) ) ;
#64 = MANIFOLD_SOLID_BREP ( 'Ðý×', #93 ) ;
#65 = DATE_TIME_ROLE ( 'creation_date' ) ;
#66 = ORIENTED_EDGE ( 'NONE', *, *, #191, .F. ) ;
#67 = DIRECTION ( 'NONE',  ( 1.000000000000000000, 0.000000000000000000, 0.000000000000000000 ) ) ;
#68 = EDGE_CURVE ( 'NONE', #170, #12, #143, .T. ) ;
#69 = DIRECTION ( 'NONE',  ( -1.000000000000000000, -0.000000000000000000, -0.000000000000000000 ) ) ;
#70 = VERTEX_POINT ( 'NONE', #123 ) ;
#71 = APPROVAL_PERSON_ORGANIZATION ( #192, #55, #82 ) ;
#72 = CARTESIAN_POINT ( 'NONE',  ( -1.614212418857619014, 6.123233995736767268E-16, -5.000000000000000888 ) ) ;
#73 = DIRECTION ( 'NONE',  ( 0.000000000000000000, 0.000000000000000000, 1.000000000000000000 ) ) ;
#74 = CARTESIAN_POINT ( 'NONE',  ( 3.000000000000000000, 0.000000000000000000, 0.000000000000000000 ) ) ;
#75 = AXIS2_PLACEMENT_3D ( 'NONE', #145, #280, #250 ) ;
#76 = DIRECTION ( 'NONE',  ( 0.000000000000000000, 0.000000000000000000, 1.000000000000000000 ) ) ;
#77 = CC_DESIGN_PERSON_AND_ORGANIZATION_ASSIGNMENT ( #267, #88, ( #314 ) ) ;
#78 = FACE_OUTER_BOUND ( 'NONE', #109, .T. ) ;
#79 = DIRECTION ( 'NONE',  ( 0.000000000000000000, 0.000000000000000000, 1.000000000000000000 ) ) ;
#80 = CARTESIAN_POINT ( 'NONE',  ( -3.000000000000000000, 6.123233995736766282E-16, -5.000000000000000000 ) ) ;
#81 = PERSON_AND_ORGANIZATION_ROLE ( 'classification_officer' ) ;
#82 = APPROVAL_ROLE ( '' ) ;
#83 = AXIS2_PLACEMENT_3D ( 'NONE', #46, #22, #73 ) ;
#84 = CC_DESIGN_SECURITY_CLASSIFICATION ( #233, ( #14 ) ) ;
#85 = EDGE_LOOP ( 'NONE', ( #135, #193, #322, #294 ) ) ;
#86 = ORIENTED_EDGE ( 'NONE', *, *, #160, .F. ) ;
#87 = CYLINDRICAL_SURFACE ( 'NONE', #75, 12.69999999999999929 ) ;
#88 = PERSON_AND_ORGANIZATION_ROLE ( 'design_owner' ) ;
#89 = VERTEX_POINT ( 'NONE', #121 ) ;
#90 = DIRECTION ( 'NONE',  ( -1.000000000000000000, -0.000000000000000000, -0.000000000000000000 ) ) ;
#91 = LINE ( 'NONE', #72, #207 ) ;
#92 = CARTESIAN_POINT ( 'NONE',  ( 0.5000000000000002220, 5.000000000000000000, 0.000000000000000000 ) ) ;
#93 = CLOSED_SHELL ( 'NONE', ( #286, #283, #197, #177, #251, #210, #256, #9, #132, #110 ) ) ;
#94 = VECTOR ( 'NONE', #131, 1000.000000000000000 ) ;
#95 = LINE ( 'NONE', #196, #28 ) ;
#96 = DIRECTION ( 'NONE',  ( 0.000000000000000000, 0.000000000000000000, 1.000000000000000000 ) ) ;
#97 = FACE_OUTER_BOUND ( 'NONE', #188, .T. ) ;
#98 = AXIS2_PLACEMENT_3D ( 'NONE', #92, #277, #44 ) ;
#99 = CARTESIAN_POINT ( 'NONE',  ( -1.614212418857619014, 0.000000000000000000, 0.000000000000000000 ) ) ;
#100 = CARTESIAN_POINT ( 'NONE',  ( -3.000000000000000000, 0.000000000000000000, 12.69999999999999929 ) ) ;
#101 = PRODUCT_DEFINITION_SHAPE ( 'NONE', 'NONE',  #141 ) ;
#102 = CARTESIAN_POINT ( 'NONE',  ( -3.000000000000000000, 5.000000000000000000, 0.000000000000000000 ) ) ;
#103 = PERSON_AND_ORGANIZATION_ROLE ( 'design_supplier' ) ;
#104 = CC_DESIGN_DATE_AND_TIME_ASSIGNMENT ( #293, #318, ( #233 ) ) ;
#105 = ORIENTED_EDGE ( 'NONE', *, *, #270, .T. ) ;
#106 = PERSON_AND_ORGANIZATION ( #258, #1 ) ;
#107 = CIRCLE ( 'NONE', #287, 12.69999999999999929 ) ;
#108 = AXIS2_PLACEMENT_3D ( 'NONE', #99, #262, #32 ) ;
#109 = EDGE_LOOP ( 'NONE', ( #47, #268, #271, #105 ) ) ;
#110 = ADVANCED_FACE ( 'NONE', ( #148 ), #117, .F. ) ;
#111 = EDGE_LOOP ( 'NONE', ( #140, #139, #194, #42 ) ) ;
#112 = DIRECTION ( 'NONE',  ( 0.000000000000000000, 0.000000000000000000, 1.000000000000000000 ) ) ;
#113 = ORIENTED_EDGE ( 'NONE', *, *, #307, .T. ) ;
#114 = ORIENTED_EDGE ( 'NONE', *, *, #246, .F. ) ;
#115 = CIRCLE ( 'NONE', #206, 5.000000000000000000 ) ;
#116 = AXIS2_PLACEMENT_3D ( 'NONE', #182, #30, #316 ) ;
#117 = PLANE ( 'NONE',  #125 ) ;
#118 = DIRECTION ( 'NONE',  ( -1.000000000000000000, -0.000000000000000000, -0.000000000000000000 ) ) ;
#119 = DIRECTION ( 'NONE',  ( -1.000000000000000000, -0.000000000000000000, -0.000000000000000000 ) ) ;
#120 = AXIS2_PLACEMENT_3D ( 'NONE', #150, #200, #173 ) ;
#121 = CARTESIAN_POINT ( 'NONE',  ( 3.000000000000000000, 6.123233995736768255E-16, -5.000000000000001776 ) ) ;
#122 = EDGE_CURVE ( 'NONE', #12, #223, #95, .T. ) ;
#123 = CARTESIAN_POINT ( 'NONE',  ( -0.5000000000000002220, 6.123233995736767268E-16, -5.000000000000000888 ) ) ;
#124 = DIRECTION ( 'NONE',  ( -1.000000000000000000, -0.000000000000000000, -0.000000000000000000 ) ) ;
#125 = AXIS2_PLACEMENT_3D ( 'NONE', #282, #226, #230 ) ;
#126 = AXIS2_PLACEMENT_3D ( 'NONE', #263, #311, #4 ) ;
#127 = FACE_BOUND ( 'NONE', #59, .T. ) ;
#128 = CC_DESIGN_PERSON_AND_ORGANIZATION_ASSIGNMENT ( #15, #295, ( #14 ) ) ;
#129 = CARTESIAN_POINT ( 'NONE',  ( -1.614212418857619014, 0.000000000000000000, 0.000000000000000000 ) ) ;
#130 = CIRCLE ( 'NONE', #292, 5.000000000000001776 ) ;
#131 = DIRECTION ( 'NONE',  ( -1.000000000000000000, -0.000000000000000000, -0.000000000000000000 ) ) ;
#132 = ADVANCED_FACE ( 'NONE', ( #178, #50 ), #308, .F. ) ;
#133 = ORIENTED_EDGE ( 'NONE', *, *, #270, .F. ) ;
#134 = PERSON_AND_ORGANIZATION ( #258, #1 ) ;
#135 = ORIENTED_EDGE ( 'NONE', *, *, #175, .T. ) ;
#136 = SHAPE_DEFINITION_REPRESENTATION ( #101, #325 ) ;
#137 = CARTESIAN_POINT ( 'NONE',  ( -3.000000000000000000, 0.000000000000000000, 0.000000000000000000 ) ) ;
#138 = APPROVAL_ROLE ( '' ) ;
#139 = ORIENTED_EDGE ( 'NONE', *, *, #68, .T. ) ;
#140 = ORIENTED_EDGE ( 'NONE', *, *, #323, .F. ) ;
#141 = PRODUCT_DEFINITION ( 'UNKNOWN', '', #14, #157 ) ;
#142 = CARTESIAN_POINT ( 'NONE',  ( 3.000000000000000000, 0.000000000000000000, 0.000000000000000000 ) ) ;
#143 = CIRCLE ( 'NONE', #83, 12.69999999999999929 ) ;
#144 = LOCAL_TIME ( 10, 32, 31.00000000000000000, #236 ) ;
#145 = CARTESIAN_POINT ( 'NONE',  ( -1.614212418857619014, 0.000000000000000000, 0.000000000000000000 ) ) ;
#146 = DIRECTION ( 'NONE',  ( 0.000000000000000000, 0.000000000000000000, 1.000000000000000000 ) ) ;
#147 = EDGE_CURVE ( 'NONE', #12, #170, #107, .T. ) ;
#148 = FACE_OUTER_BOUND ( 'NONE', #291, .T. ) ;
#149 = VECTOR ( 'NONE', #186, 1000.000000000000000 ) ;
#150 = CARTESIAN_POINT ( 'NONE',  ( -0.5000000000000002220, 0.000000000000000000, 0.000000000000000000 ) ) ;
#151 = EDGE_CURVE ( 'NONE', #274, #89, #40, .T. ) ;
#152 = CYLINDRICAL_SURFACE ( 'NONE', #108, 5.000000000000000888 ) ;
#153 =( LENGTH_UNIT ( ) NAMED_UNIT ( * ) SI_UNIT ( .MILLI., .METRE. ) );
#154 =( GEOMETRIC_REPRESENTATION_CONTEXT ( 3 ) GLOBAL_UNCERTAINTY_ASSIGNED_CONTEXT ( ( #185 ) ) GLOBAL_UNIT_ASSIGNED_CONTEXT ( ( #153, #209, #156 ) ) REPRESENTATION_CONTEXT ( 'NONE', 'WORKASPACE' ) );
#155 = CIRCLE ( 'NONE', #116, 5.000000000000000000 ) ;
#156 =( NAMED_UNIT ( * ) SI_UNIT ( $, .STERADIAN. ) SOLID_ANGLE_UNIT ( ) );
#157 = DESIGN_CONTEXT ( 'detailed design', #312, 'design' ) ;
#158 = LINE ( 'NONE', #208, #149 ) ;
#159 = CYLINDRICAL_SURFACE ( 'NONE', #126, 12.69999999999999929 ) ;
#160 = EDGE_CURVE ( 'NONE', #70, #296, #224, .T. ) ;
#161 = APPROVAL_PERSON_ORGANIZATION ( #215, #301, #138 ) ;
#162 = PERSON_AND_ORGANIZATION_ROLE ( 'creator' ) ;
#163 = ORIENTED_EDGE ( 'NONE', *, *, #329, .T. ) ;
#164 = PRODUCT_RELATED_PRODUCT_CATEGORY ( 'detail', '', ( #314 ) ) ;
#165 = COORDINATED_UNIVERSAL_TIME_OFFSET ( 8, 0, .AHEAD. ) ;
#166 = ORIENTED_EDGE ( 'NONE', *, *, #147, .F. ) ;
#167 = APPROVAL_STATUS ( 'not_yet_approved' ) ;
#168 = ORIENTED_EDGE ( 'NONE', *, *, #323, .T. ) ;
#169 = LOCAL_TIME ( 10, 32, 31.00000000000000000, #265 ) ;
#170 = VERTEX_POINT ( 'NONE', #255 ) ;
#171 = APPROVAL_STATUS ( 'not_yet_approved' ) ;
#172 = FACE_OUTER_BOUND ( 'NONE', #63, .T. ) ;
#173 = DIRECTION ( 'NONE',  ( 0.000000000000000000, 0.000000000000000000, -1.000000000000000000 ) ) ;
#174 = AXIS2_PLACEMENT_3D ( 'NONE', #5, #124, #79 ) ;
#175 = EDGE_CURVE ( 'NONE', #296, #70, #288, .T. ) ;
#176 = FACE_OUTER_BOUND ( 'NONE', #18, .T. ) ;
#177 = ADVANCED_FACE ( 'NONE', ( #172 ), #332, .F. ) ;
#178 = FACE_OUTER_BOUND ( 'NONE', #61, .T. ) ;
#179 = CARTESIAN_POINT ( 'NONE',  ( -3.000000000000000000, 0.000000000000000000, 0.000000000000000000 ) ) ;
#180 = CYLINDRICAL_SURFACE ( 'NONE', #29, 5.000000000000000888 ) ;
#181 = CARTESIAN_POINT ( 'NONE',  ( -1.614212418857619014, 1.555301434917138433E-15, -12.69999999999999929 ) ) ;
#182 = CARTESIAN_POINT ( 'NONE',  ( -3.000000000000000000, 0.000000000000000000, 0.000000000000000000 ) ) ;
#183 = CC_DESIGN_APPROVAL ( #231, ( #233 ) ) ;
#184 = CARTESIAN_POINT ( 'NONE',  ( -1.614212418857619014, 0.000000000000000000, 5.000000000000000888 ) ) ;
#185 = UNCERTAINTY_MEASURE_WITH_UNIT (LENGTH_MEASURE( 1.000000000000000082E-05 ), #153, 'distance_accuracy_value', 'NONE');
#186 = DIRECTION ( 'NONE',  ( -1.000000000000000000, -0.000000000000000000, -0.000000000000000000 ) ) ;
#187 = APPROVAL_STATUS ( 'not_yet_approved' ) ;
#188 = EDGE_LOOP ( 'NONE', ( #216, #10 ) ) ;
#189 = CC_DESIGN_APPROVAL ( #55, ( #14 ) ) ;
#190 = ORIENTED_EDGE ( 'NONE', *, *, #147, .T. ) ;
#191 = EDGE_CURVE ( 'NONE', #70, #225, #91, .T. ) ;
#192 = PERSON_AND_ORGANIZATION ( #258, #1 ) ;
#193 = ORIENTED_EDGE ( 'NONE', *, *, #191, .T. ) ;
#194 = ORIENTED_EDGE ( 'NONE', *, *, #122, .T. ) ;
#195 = ORIENTED_EDGE ( 'NONE', *, *, #175, .F. ) ;
#196 = CARTESIAN_POINT ( 'NONE',  ( -1.614212418857619014, 0.000000000000000000, 12.69999999999999929 ) ) ;
#197 = ADVANCED_FACE ( 'NONE', ( #176 ), #302, .F. ) ;
#198 = DIRECTION ( 'NONE',  ( -1.000000000000000000, -0.000000000000000000, -0.000000000000000000 ) ) ;
#199 = APPROVAL_PERSON_ORGANIZATION ( #134, #231, #60 ) ;
#200 = DIRECTION ( 'NONE',  ( 1.000000000000000000, 0.000000000000000000, 0.000000000000000000 ) ) ;
#201 = CC_DESIGN_PERSON_AND_ORGANIZATION_ASSIGNMENT ( #106, #81, ( #233 ) ) ;
#202 = CARTESIAN_POINT ( 'NONE',  ( 0.5000000000000004441, 0.000000000000000000, 5.000000000000000000 ) ) ;
#203 = DIRECTION ( 'NONE',  ( -1.000000000000000000, -0.000000000000000000, -0.000000000000000000 ) ) ;
#204 = DIRECTION ( 'NONE',  ( 0.000000000000000000, 0.000000000000000000, -1.000000000000000000 ) ) ;
#205 = EDGE_CURVE ( 'NONE', #89, #266, #253, .T. ) ;
#206 = AXIS2_PLACEMENT_3D ( 'NONE', #334, #90, #96 ) ;
#207 = VECTOR ( 'NONE', #198, 1000.000000000000000 ) ;
#208 = CARTESIAN_POINT ( 'NONE',  ( -1.614212418857619014, 0.000000000000000000, 5.000000000000000888 ) ) ;
#209 =( NAMED_UNIT ( * ) PLANE_ANGLE_UNIT ( ) SI_UNIT ( $, .RADIAN. ) );
#210 = ADVANCED_FACE ( 'NONE', ( #54 ), #335, .F. ) ;
#211 = FACE_OUTER_BOUND ( 'NONE', #220, .T. ) ;
#212 = CC_DESIGN_APPROVAL ( #301, ( #141 ) ) ;
#213 = DIRECTION ( 'NONE',  ( -1.000000000000000000, -0.000000000000000000, -0.000000000000000000 ) ) ;
#214 = SECURITY_CLASSIFICATION_LEVEL ( 'unclassified' ) ;
#215 = PERSON_AND_ORGANIZATION ( #258, #1 ) ;
#216 = ORIENTED_EDGE ( 'NONE', *, *, #3, .T. ) ;
#217 = AXIS2_PLACEMENT_3D ( 'NONE', #331, #279, #333 ) ;
#218 = AXIS2_PLACEMENT_3D ( 'NONE', #273, #112, #239 ) ;
#219 = CALENDAR_DATE ( 2021, 5, 1 ) ;
#220 = EDGE_LOOP ( 'NONE', ( #190, #168, #297, #276 ) ) ;
#221 = EDGE_LOOP ( 'NONE', ( #66, #247, #113, #163 ) ) ;
#222 = CALENDAR_DATE ( 2021, 5, 1 ) ;
#223 = VERTEX_POINT ( 'NONE', #100 ) ;
#224 = CIRCLE ( 'NONE', #120, 5.000000000000000888 ) ;
#225 = VERTEX_POINT ( 'NONE', #80 ) ;
#226 = DIRECTION ( 'NONE',  ( 1.000000000000000000, 0.000000000000000000, 0.000000000000000000 ) ) ;
#227 = DIRECTION ( 'NONE',  ( 0.000000000000000000, 0.000000000000000000, -1.000000000000000000 ) ) ;
#228 = CARTESIAN_POINT ( 'NONE',  ( 3.000000000000000000, 0.000000000000000000, 0.000000000000000000 ) ) ;
#229 = DIRECTION ( 'NONE',  ( -1.000000000000000000, -0.000000000000000000, -0.000000000000000000 ) ) ;
#230 = DIRECTION ( 'NONE',  ( 0.000000000000000000, 0.000000000000000000, -1.000000000000000000 ) ) ;
#231 = APPROVAL ( #187, 'UNSPECIFIED' ) ;
#232 = LINE ( 'NONE', #184, #264 ) ;
#233 = SECURITY_CLASSIFICATION ( '', '', #214 ) ;
#234 = EDGE_CURVE ( 'NONE', #225, #41, #155, .T. ) ;
#235 = FACE_OUTER_BOUND ( 'NONE', #85, .T. ) ;
#236 = COORDINATED_UNIVERSAL_TIME_OFFSET ( 8, 0, .AHEAD. ) ;
#237 = CC_DESIGN_PERSON_AND_ORGANIZATION_ASSIGNMENT ( #321, #162, ( #141 ) ) ;
#238 = ORIENTED_EDGE ( 'NONE', *, *, #43, .F. ) ;
#239 = DIRECTION ( 'NONE',  ( 1.000000000000000000, 0.000000000000000000, 0.000000000000000000 ) ) ;
#240 = ORIENTED_EDGE ( 'NONE', *, *, #68, .F. ) ;
#241 = CIRCLE ( 'NONE', #174, 5.000000000000000000 ) ;
#242 = DATE_AND_TIME ( #275, #13 ) ;
#243 = DIRECTION ( 'NONE',  ( -1.000000000000000000, -0.000000000000000000, -0.000000000000000000 ) ) ;
#244 = CALENDAR_DATE ( 2021, 5, 1 ) ;
#245 = ORIENTED_EDGE ( 'NONE', *, *, #205, .T. ) ;
#246 = EDGE_CURVE ( 'NONE', #274, #37, #158, .T. ) ;
#247 = ORIENTED_EDGE ( 'NONE', *, *, #160, .T. ) ;
#248 = AXIS2_PLACEMENT_3D ( 'NONE', #179, #306, #21 ) ;
#249 = AXIS2_PLACEMENT_3D ( 'NONE', #129, #52, #76 ) ;
#250 = DIRECTION ( 'NONE',  ( 0.000000000000000000, 0.000000000000000000, 1.000000000000000000 ) ) ;
#251 = ADVANCED_FACE ( 'NONE', ( #78 ), #180, .F. ) ;
#252 = CARTESIAN_POINT ( 'NONE',  ( -3.000000000000000000, 0.000000000000000000, 5.000000000000000000 ) ) ;
#253 = LINE ( 'NONE', #23, #304 ) ;
#254 = CARTESIAN_POINT ( 'NONE',  ( 3.000000000000000000, 0.000000000000000000, 12.69999999999999929 ) ) ;
#255 = CARTESIAN_POINT ( 'NONE',  ( 3.000000000000000000, 1.555301434917138433E-15, -12.69999999999999929 ) ) ;
#256 = ADVANCED_FACE ( 'NONE', ( #127, #97 ), #56, .F. ) ;
#257 = CARTESIAN_POINT ( 'NONE',  ( -0.5000000000000002220, 0.000000000000000000, 5.000000000000000888 ) ) ;
#258 = PERSON ( 'UNSPECIFIED', 'UNSPECIFIED', 'UNSPECIFIED', ('UNSPECIFIED'), ('UNSPECIFIED'), ('UNSPECIFIED') ) ;
#259 = AXIS2_PLACEMENT_3D ( 'NONE', #137, #243, #16 ) ;
#260 = CIRCLE ( 'NONE', #328, 5.000000000000000000 ) ;
#261 = CC_DESIGN_PERSON_AND_ORGANIZATION_ASSIGNMENT ( #35, #103, ( #14 ) ) ;
#262 = DIRECTION ( 'NONE',  ( -1.000000000000000000, -0.000000000000000000, -0.000000000000000000 ) ) ;
#263 = CARTESIAN_POINT ( 'NONE',  ( -1.614212418857619014, 0.000000000000000000, 0.000000000000000000 ) ) ;
#264 = VECTOR ( 'NONE', #33, 1000.000000000000000 ) ;
#265 = COORDINATED_UNIVERSAL_TIME_OFFSET ( 8, 0, .AHEAD. ) ;
#266 = VERTEX_POINT ( 'NONE', #284 ) ;
#267 = PERSON_AND_ORGANIZATION ( #258, #1 ) ;
#268 = ORIENTED_EDGE ( 'NONE', *, *, #151, .F. ) ;
#269 = APPROVAL_DATE_TIME ( #62, #231 ) ;
#270 = EDGE_CURVE ( 'NONE', #37, #266, #241, .T. ) ;
#271 = ORIENTED_EDGE ( 'NONE', *, *, #246, .T. ) ;
#272 = CIRCLE ( 'NONE', #259, 12.69999999999999929 ) ;
#273 = CARTESIAN_POINT ( 'NONE',  ( 0.000000000000000000, 0.000000000000000000, 0.000000000000000000 ) ) ;
#274 = VERTEX_POINT ( 'NONE', #31 ) ;
#275 = CALENDAR_DATE ( 2021, 5, 1 ) ;
#276 = ORIENTED_EDGE ( 'NONE', *, *, #122, .F. ) ;
#277 = DIRECTION ( 'NONE',  ( -1.000000000000000000, 0.000000000000000000, -0.000000000000000000 ) ) ;
#278 = CC_DESIGN_DATE_AND_TIME_ASSIGNMENT ( #326, #65, ( #141 ) ) ;
#279 = DIRECTION ( 'NONE',  ( -1.000000000000000000, 0.000000000000000000, -0.000000000000000000 ) ) ;
#280 = DIRECTION ( 'NONE',  ( -1.000000000000000000, -0.000000000000000000, -0.000000000000000000 ) ) ;
#281 = CARTESIAN_POINT ( 'NONE',  ( -3.000000000000000000, 1.555301434917138433E-15, -12.69999999999999929 ) ) ;
#282 = CARTESIAN_POINT ( 'NONE',  ( -0.5000000000000002220, 5.000000000000000000, 0.000000000000000000 ) ) ;
#283 = ADVANCED_FACE ( 'NONE', ( #235 ), #152, .F. ) ;
#284 = CARTESIAN_POINT ( 'NONE',  ( 0.5000000000000004441, 6.123233995736766282E-16, -5.000000000000000000 ) ) ;
#285 = APPLICATION_CONTEXT ( 'configuration controlled 3d designs of mechanical parts and assemblies' ) ;
#286 = ADVANCED_FACE ( 'NONE', ( #211 ), #159, .T. ) ;
#287 = AXIS2_PLACEMENT_3D ( 'NONE', #142, #118, #300 ) ;
#288 = CIRCLE ( 'NONE', #20, 5.000000000000000888 ) ;
#289 = CARTESIAN_POINT ( 'NONE',  ( -1.614212418857619014, 0.000000000000000000, 0.000000000000000000 ) ) ;
#290 = APPLICATION_PROTOCOL_DEFINITION ( 'international standard', 'config_control_design', 1994, #312 ) ;
#291 = EDGE_LOOP ( 'NONE', ( #195, #86 ) ) ;
#292 = AXIS2_PLACEMENT_3D ( 'NONE', #228, #229, #24 ) ;
#293 = DATE_AND_TIME ( #38, #45 ) ;
#294 = ORIENTED_EDGE ( 'NONE', *, *, #307, .F. ) ;
#295 = PERSON_AND_ORGANIZATION_ROLE ( 'creator' ) ;
#296 = VERTEX_POINT ( 'NONE', #257 ) ;
#297 = ORIENTED_EDGE ( 'NONE', *, *, #3, .F. ) ;
#298 = APPLICATION_PROTOCOL_DEFINITION ( 'international standard', 'config_control_design', 1994, #285 ) ;
#299 = ORIENTED_EDGE ( 'NONE', *, *, #151, .T. ) ;
#300 = DIRECTION ( 'NONE',  ( 0.000000000000000000, 0.000000000000000000, 1.000000000000000000 ) ) ;
#301 = APPROVAL ( #167, 'UNSPECIFIED' ) ;
#302 = CYLINDRICAL_SURFACE ( 'NONE', #309, 5.000000000000000888 ) ;
#303 = EDGE_LOOP ( 'NONE', ( #299, #327 ) ) ;
#304 = VECTOR ( 'NONE', #119, 1000.000000000000000 ) ;
#305 = DIRECTION ( 'NONE',  ( -1.000000000000000000, -0.000000000000000000, -0.000000000000000000 ) ) ;
#306 = DIRECTION ( 'NONE',  ( -1.000000000000000000, -0.000000000000000000, -0.000000000000000000 ) ) ;
#307 = EDGE_CURVE ( 'NONE', #296, #41, #232, .T. ) ;
#308 = PLANE ( 'NONE',  #217 ) ;
#309 = AXIS2_PLACEMENT_3D ( 'NONE', #49, #69, #146 ) ;
#310 = DIRECTION ( 'NONE',  ( -1.000000000000000000, -0.000000000000000000, -0.000000000000000000 ) ) ;
#311 = DIRECTION ( 'NONE',  ( -1.000000000000000000, -0.000000000000000000, -0.000000000000000000 ) ) ;
#312 = APPLICATION_CONTEXT ( 'configuration controlled 3d designs of mechanical parts and assemblies' ) ;
#313 = DIRECTION ( 'NONE',  ( 1.000000000000000000, 0.000000000000000000, 0.000000000000000000 ) ) ;
#314 = PRODUCT ( 'QM-AAHWP-10-650-1100-M', 'QM-AAHWP-10-650-1100-M', '', ( #11 ) ) ;
#315 = LINE ( 'NONE', #181, #94 ) ;
#316 = DIRECTION ( 'NONE',  ( 0.000000000000000000, 0.000000000000000000, 1.000000000000000000 ) ) ;
#317 = COORDINATED_UNIVERSAL_TIME_OFFSET ( 8, 0, .AHEAD. ) ;
#318 = DATE_TIME_ROLE ( 'classification_date' ) ;
#319 = ORIENTED_EDGE ( 'NONE', *, *, #234, .F. ) ;
#320 = AXIS2_PLACEMENT_3D ( 'NONE', #102, #313, #204 ) ;
#321 = PERSON_AND_ORGANIZATION ( #258, #1 ) ;
#322 = ORIENTED_EDGE ( 'NONE', *, *, #234, .T. ) ;
#323 = EDGE_CURVE ( 'NONE', #170, #19, #315, .T. ) ;
#324 = FACE_OUTER_BOUND ( 'NONE', #111, .T. ) ;
#325 = ADVANCED_BREP_SHAPE_REPRESENTATION ( 'QM-AAHWP-10-650-1100-M', ( #64, #218 ), #154 ) ;
#326 = DATE_AND_TIME ( #222, #169 ) ;
#327 = ORIENTED_EDGE ( 'NONE', *, *, #26, .T. ) ;
#328 = AXIS2_PLACEMENT_3D ( 'NONE', #27, #310, #2 ) ;
#329 = EDGE_CURVE ( 'NONE', #41, #225, #260, .T. ) ;
#330 = ORIENTED_EDGE ( 'NONE', *, *, #43, .T. ) ;
#331 = CARTESIAN_POINT ( 'NONE',  ( 3.000000000000000000, 12.69999999999999929, 0.000000000000000000 ) ) ;
#332 = PLANE ( 'NONE',  #98 ) ;
#333 = DIRECTION ( 'NONE',  ( -0.000000000000000000, 0.000000000000000000, 1.000000000000000000 ) ) ;
#334 = CARTESIAN_POINT ( 'NONE',  ( 0.5000000000000004441, 0.000000000000000000, 0.000000000000000000 ) ) ;
#335 = CYLINDRICAL_SURFACE ( 'NONE', #249, 5.000000000000000888 ) ;
ENDSEC;
END-ISO-10303-21;
